песен 29
сегодня 25
Название: Мобильник
Исполнитель: Ленинград
Отзывов: 0
Прослушано: 16255
e|-12-15--15-12--17-15-17-15-17-15-17-15--17-19-

Соло небольшое:
e|-3-5-3-0-

Бас:
E|-0-0--0-0-8-8--8-8-5-5--5-5-3-3--3-3-0-0-


2-й вариант:
Мелодия мобильника:

    Gm     F      Cm              C(III)
e|--0-3----3-0----5-3-5-3-5-3-5-3-5-7------|
B------------------------------|
G------------------------------|
D------------------------------|


Аккорды (которые играет гармошка):

             Gm                 F               Cm            C(III)
e|0---0-0---0-0---|1---1-1---1-1---|1---1-1---1-1------|
B|1---1-1---1-1---|1---1-1---1-1---|3---3-3---3-3---|3---3-3---3---|
G|2---2-2---2-2---|2---2-2---2-2---|2---2-2---2-2---|4---4-4---4---|
D---------------|5---5-5---5---|


Гитарный перебор:

e|--------7-------7----|
B|--8-5-8---8-5-8------|
G----------|
D----------|


Бас:

G--------------------------------|
D--------------------------------|
G3-3----3-2-0-0----0-------------|
E|--0-0----0---------------------3-3----3-2--|