песен 48
сегодня 25
Название: Дикий мужчина
Исполнитель: Ленинград
Отзывов: 0
Прослушано: 10936
E|-2----2----2---2----2----2----4----4----4---2-2-2-2-2-2-2|
B|--2-2--2-2--2---3-3--3-3--3----2-2--2-2--2---------------|
G|---2----2----2---4----4----4----4----4----4--------------|

Fm
Ты называешь меня говнюком
Cm
Да, я все время бухой
Bm
И твою жопу при людях хватаю
Fm
Своей волосатой рукой.

аналогично
Да, мои ноги вонючие палки
На которых все в дырках носки
А эти две кучи из пыли и грязи -
Это мои башмаки.

Могучий рифф

Cm Bm
Да, ты права, я - дикий мужчина,
Cm Bm
Ты права, я - дикий мужчина,
Cm Bm
Ты права, я - дикий мужчина:
Fm
Яйца, табак, перегар и щетина

Могучий рифф

Да, ты права, я - дикий мужчина,
Ты права, я - дикий мужчина,
Ты права, я - дикий мужчина:
Яйца, табак, перегар и щетина

Могучий рифф 2 раза

Могучий рифф:
Fm
e|---------------------------|
B|---------------------------|
G|-4---------4---------4-----|
D|---4----4----4----4----4---|
A|------5---------5--------5-|
E|---------------------------|
Cm
e|---------------------------|
B|---------------------------|
G|-4---------4---------4-----|
D|---5--2-5----5--2-5----5-2-|
A|---------------------------|
E|---------------------------|
Bm
e|---------------------------|
B|-2---------2---------2-----|
G|---3----3----3----3----3---|
D|------4---------4--------4-|
A|---------------------------|
E|---------------------------|

Fm
e|---------------------------|
B|---------------------------|
G|-4---------4----4----------|
D|---4----4----4-------------|
A|------5--------------------|
E|---------------------------|